‘Ukulele Chord Shapes eBook
“If you have questions about ukulele chords, Chord Shapes has the answers.” ~ James Hill

“Ain’t No Way” By Malino ‘Ukulele Chords

malinoAin’t No Way
Malino
Always Be Mine
PDF Download
MP3 Download
Intro: (Keyboard plays C)
A|-----3-5-5/7\5-3-3h5p3-------------
E|-3/5-------------------5-3h5p3---3-
C|-------------------------------4---
G|-----------------------------------

A|-----3-5-5/7\5-3-3h5p3---3h5p3---3-
E|-3/5-------------------5-------5---
C|-----------------------------------
G|-----------------------------------

A|-----3-5-5/7\5-3-3h5p3-------------3---3---
E|-3/5-------------------5-3h5p3---3---3---3-
C|-------------------------------4-----------
G--------------------------------------------

A|-----3-5-5/7\5-3-5/7-3h5p3---3-
E|-3/5-----------------------5---
C|-------------------------------
G|-------------------------------

C
Sittin’ in the Laundromat, tryin’ to get clean. 

Twenty-five women, arrive on the scene. 

Chorus:
             F              
Ain’t no way baby
             C
Ain’t no way baby
             Dm
Ain’t no way baby
             C
Ain’t no way baby

   C       
Down in the valley, lookin’ for malino time

Lookin’ at my lady, singin’ that sorry line. 

Chorus>

Am/ G/ F/ G/ C

C     
Goin’ to the welfare, standin’ in line, 

The woman at the window, she won’t give me a dime.  

Chorus:
             F              
Ain’t no way baby
             C
Ain’t no way baby
             G/    Am/ G/             F/           G/  C
Ain’t no way baby,      no way you’re gonna get to me.
             Dm              
Ain’t no way baby
                           C
No way you’re gonna get to me

G/ Am/ G/ F/ G/ C

Solo/Outro: C