‘Ukulele Chord Shapes eBook
“If you have questions about ukulele chords, Chord Shapes has the answers.” ~ James Hill

“Country Road” By Paula Fuga & Jack Johnson ‘Ukulele Chords

manamaoliCountry Road
Paula Fuga & Jack Johnson
Mana Maoli Volume 2
PDF Download
MP3 Download
  C                 Dm 
A|-----7------5-3------8-7-5-3-----8-7-5-3-
E|-----------------------------5-3---------
C|-5/7------5---4------9-7-5-4-----9-7-5-4-
G|-----------------------------------------

  C                                Dm 
A|-------7---10----7---------------8-7-5-3-----8-7-5-3-
E|--------------10---8---8-10-8------------5-3---------
C|-2-5/7---7-----------7-----------9-7-5-4-----9-7-5-4-
G|-----------------------------------------------------

1st Verse:
C
Head on Collision on a two lane country road,
Dm
Lord I pray let them be safe.
C
No turning back I’m just a mile away from home,
Dm
I sit here waiting let me be patient.

Chorus:
Am
Sometimes it’s hard to ease my mind to realize,
Dm
You’re always with me waiting, willing
Am
To hear my prayers, my hopes, my dreams, my every need
1st time:
Dm
I pray for wisdom and overstanding
2nd time:
Dm
I pray for peace in times of war
3rd time:
Dm
I pray for light in times of darkness

C
What’s meant to be will always be though I control my destiny,
Dm
Free will you gave me even though you made me.
C
Be careful of the things you do it eventually comes back to you,
Dm
universal law, Babylon shall fall

Chorus>

Whistling Solo: Verse chords

Guitar Solo: Verse chords

1st verse>

Chorus