‘Ukulele Chord Shapes eBook
“If you have questions about ukulele chords, Chord Shapes has the answers.” ~ James Hill

“Kiss You In The Morning” By Kalaeloa ‘Ukulele Chords

Kiss You In The Morning By Kalaeloa Ukulele ChordsKiss You In The Morning
Kalaeloa
Let The Good Times Roll
PDF Download
Album
Fill 1:             Fill 2:
A |-0h1p0---0--- || A |-----------------
E |-------3---1- || E |-(1)-----1-----1-
C |------------- || C |-----0h2---0h2---
G |------------- || G |-----------------

Fill 3:                 Fill 4:       Fill 5:
A |-----3-----1---1- || A |------- || A |-------5---5-
E |-3/5---5\3---3-0- || E |------- || E |-------6---6-
C |---------------0- || C |-0h2-3- || C |-0-2/5---5---
G |---------------0- || G |------- || G |-------------

Intro: F      C7 (Fill 1)F  (Fill 2)(C7) (Fill 3)

Chorus:
   F              (Fill 2)                    F7 (Fill 4)
I kiss you in the morning, kiss you in the evening
                 Bb  (Fill 5) (Fill 1)F   (Fill 2)
lay by you when you're sleeping, my baby
    F             (Fill 2)                         F7 (Fill 4)
I give you all my love and, trust you with my heart and
                    Bb  (Fill 5)(Fill 1)  F (Fill 2)    A7
stand by you, when you're down, I'll be around
                          Dm            Bbm   F        C7
Falling away, thoughts of you and only you.......... my baby
Bb       C  Bb   F
ooh   ooh    ooohhh...

             F                                         Bb
To know you love me is something special brings this feeling deep in me
                                          C7               F  C7
that only you and i can see, oh how our love was meant to be
             F                                         Bb
To know you love me is something special brings this feeling deep in me
                                          C7              F  C7(Fill 3)
that only you and i can see, oh how our love was meant to be so I,

Chorus>

Instrumental:
A |-0h1p0---0---0-0-0-0-0-----------0-0-0-0-0-0h3-3------------
E |-------3---1-----------3-1-----1-----------------------/8-8-
C |---------------------------0h2-------------------0-2-3------
G |------------------------------------------------------------

A |-3/12-12-13-12-10-8-8h10-8------------------/10-8--------
E |---------------------------10-10-10-6-8-8-6-------8/10-8-
C |---------------------------------------------------------
G |---------------------------------------------------------

A |-0h1p0---0-------1-----2-----3-------
E |-------3---1-1/3---3/4---4/5-------1-
C |-------------------------------0h2---
G |-------------------------------------

A |-0h1p0---0---0-0-0-0-0-----------0-0-0-0-0-0h3-3------------
E |-------3---1-----------3-1-----1-----------------------/8-8-
C |---------------------------0h2-------------------0-2-3------
G |------------------------------------------------------------

A |-3/12-12-13-12-10-8-8h10-8------------------/10-8--------
E |---------------------------10-10-10-6-8-8-6-------8/10-8-
C |---------------------------------------------------------
G |---------------------------------------------------------

A |-0h1p0---0------------------
E |-------3---1--1-----1-----1-
C |----------------0h2---0h2---
G |----------------------------

A7			   Dm  	       Bbm	  F	C7
  Falling away, thoughts of you and only you.......... my baby
Bb      C  Bb  F
ooh    ooh   ooohhh...
Bb      C  Bb  F
Yeah,   Yeah,  Yeah...
Bb      C  Bb  F
Mmm,   hmm,   hmm

Fmaj7 (fade out)