‘Ukulele Chord Shapes eBook
“If you have questions about ukulele chords, Chord Shapes has the answers.” ~ James Hill

“Put A Little Love” By Natural Vibrations ‘Ukulele Chords

This is one of my favorite Jawaiian songs!

The picking for Put a Little Love is pretty straightforward with only a few hammer-ons to watch for. Play the second two lines of tab with your index finger plectrum-style or by alternating thumb/index. That’s going to make it easiest to play the fast open notes.

To play the intro just like the record, hit two punches on the first three chords in the progression and then one each for the last two.

allnaturalPut A Little Love
Natural Vibrations
All Natural
PDF Download
MP3 Download
Intro: C// G// Am// F/ G/

Picking:
A |-0-3-0-8-7-5-7-5-3-3-3h5p3-0-0-0h3p0-------------------|
E |-------------------------------------3-3-3h5p0---0-----| x2
C |-----------------------------------------------2---2-0-|
G |-------------------------------------------------------|

A |---------------------------------------------------------------------|
E |-0-0-0-0-0---------0-0-0-0-0---------0-0-0-0-0-------0-------0-------|
C |-----------2-0-0-------------2-0-0-------------2-0-2---2-0-2---2-0-0-|
G |---------------------------------------------------------------------|

A |-----------0--------------------------------------------------------|
E |-0-0-0-0-0---3-0---0-0-0-0-0-3-0----0-0-0-0-0-------0-------0-------|
C |---------------------------------2------------2-0-2---2-0-2---2-0-0-|
G |--------------------------------------------------------------------|

C           G       Am          F     G
Well I remember when we were in love
C       G          Am              F    G
Inseparable my baby like a hand in glove
C               G          Am                F    G
But things have changed and you're no longer there
C             G               Am                  F    G
And all you have to know girl is that I will take care so…

Chorus:
C            G              Am             F    G
Put a little lovin’ in your heart (In your heart)
C		    G                 Am                  F    G	
Cause that’s where love will have to start (Will have to start)
C	     G              Am 	   F    G
Put a little faith in your mind (In your mind)
C	   	    G                  Am   F   G7
Cause every little thing will be just fine

C         G          Am       F     G
And I remember when we’d hold hands
C              G                 Am                        F   G
We take a walk on the beach girl and write our name in the sand
C               G       Am                   F    G
But things have changed and you're no longer there
C           G                 Am                  F    G
And all you have to know girl is that I will take care so…

Chorus>

Bridge:
Em                 F
You didn't have to leave me without a say and
Em                    F                   G
Now I’m left here all alone and I’m still praying

Picking>

Chorus>

Love me, love me (x4)