“You And Your Heart” by Jack Johnson ‘Ukulele Chords

So far all we’ve been able hear off of Jack Johnson‘s new album To The Sea is You And Your Heart which was released as a single.

The music video for You And Your Heart is great and I listened to it to figure out the song.

to the sea cover jack johnson

You And Your Heart
Jack Johnson
To The Sea
PDF Download
Scratch intro (mute strings): DDD DUUD D

    (A)               (G)               (D)
A |-x-x-x-x-x-x-x-x-x-x—x-x—x-x-x-x-x-x-x-x-x-x-x-x-x-x-x-x-x-x-x-x-x-x-|
E |-9-9-9-9-9-9-9-7-5-x-x-x-x-x-x-x-5-7-x-x-x-x-x-x-x-x-x-x-x-x-x-x-x-x-|
C |-x-x-x-x-x-x-x-x-x-7-7-7-7-7-7-7-x-x-2-2-2-2-2-6-7-6-2-2-2-2-2-6-7-6-|
G |-x-x-x-x-x-x-x-x-x-x-x-x-x-x-x-x-x-x-x-x-x-x-x-x-x-x-x-x-x-x-x-x-x-x-|
(repeat 3x and throughout verses)

Verse:
A
Watch you when you say
         G
What you are and when you blame
     D
Everyone, You broken king
A
Watch you change the frame or
          G
Watch you when you take your aim
       D
At the sum of everything

Chorus:
      G            A
Cause you and your heart
          D            G
Shouldn't feel so far apart
   (F#) G               A
You can choose what you take
              D                         G    G#
Why you gotta break and make it feel so hard

Break:
    A                 G                 D
A |-x-x-x-x-x-x-x-x-x-x—x-x—x-x-x-x-x-x-x-x-x-x-x-x-x-x-x-x-x-x-x-x-x-x-|
E |-9-9-9-9-9-9-9-7-5-x-x-x-x-x-x-x-5-7-x-x-x-x-x-x-x-x-x-x-x-x-x-x-x-x-|
C |-x-x-x-x-x-x-x-x-x-7-7-7-7-7-7-7-x-x-2-2-2-2-2-6-7-6-2-2-2-2-2-6-7-6-|
G |-x-x-x-x-x-x-x-x-x-x-x-x-x-x-x-x-x-x-x-x-x-x-x-x-x-x-x-x-x-x-x-x-x-x-|
(repeat 2x)

 A
You lay there in the street
            G                              D
Like broken glass reflecting pieces of the sun

But you're not the flame
            A
You got the people passing by
            G
Because you know what you don't like
          D
It's just so easy, it's just so easy 

Chorus x2>

Break 2:
    A       D         A       D
A |-----4-----------------4-------------
E |-5-5---5-------2-3-5-5---5-------2-3-
C |---------2-2-2-------------2-2-2-----
G |-------------------------------------
(repeat 2x and through bridge)

E (pedal G# on E string)

Bridge:
                 A                 D
You just draw so many lines in the sand
         A              D
Lost the fingernails on your hands
           A                 D
How you're gonna scratch any backs?
       A                   D              E
Better hope that time will take our lines away

Take all our lines and
A         D         A        D
Hope that time will take our lines and
A         D         A        D     E
Hope that time will take our lines away
                   A/
Take all our lines away
Share
Pin
Reddit
Email