“Happy Birthday” ‘Ukulele Tab & Chords

One of the most widely known songs in the Western world, every musician worth his or her salt should probably know Happy Birthday.

The weirdest thing about this song is that it’s actually in 3/4 time so be sure to count one beat short of the normal four!

Included below are two keys so you can strum the one that fits your voice the best. There’s also an ‘ukulele tab that shows how to pick the melody of Happy Birthday. Both are pretty simple, but the picking in the key of F is probably easier.

You can find the chord diagrams for this song here.

Click the “PDF Download” link for a PDF version of the melody in the key of F. This is also the best bet for people more comfortable with standard notation “sheet music.”

Happy Birthday
Traditional
PDF Download

Key of C:

      C           G7
Happy Birthday to you!
                  C
Happy Birthday to you!
                     F
Happy Birthday dear [PERSON]!
      C        G7 C
Happy Birthday to you!

Picking:
A |--------|--------3--|--2--------------------|
E |--3--3--|--5--3-----|-----------------3--3--|
C |--------|-----------|-----------------------|
G |--------|-----------|-----------------------|

A |--------5--|--3-------------------|--10--7-----|
E |--5--3-----|----------------3--3--|---------8--|
C |-----------|----------------------|------------|
G |-----------|----------------------|------------|

A |-----------------8--8--|--7--3--5--|--3-------||
E |--7--5-----------------|-----------|----------||
C |-----------------------|-----------|----------||
G |-----------------------|-----------|----------||

Key of F:

      F           C7
Happy Birthday to you!
                  F
Happy Birthday to you!
                     Bb
Happy Birthday dear [PERSON]!
      F        C7 F
Happy Birthday to you!

Picking:
A |--------|-----------|-----------------------|
E |--------|--------1--|--0--------------------|
C |--0--0--|--2--0-----|-----------------0--0--|
G |--------|-----------|-----------------------|

A |-----------|----------------------|--3--0-----|
E |--------3--|--1-------------------|--------1--|
C |--2--0-----|----------------0--0--|-----------|
G |-----------|----------------------|-----------|

A |-----------------1--1--|--0--------|----------||
E |--0--------------------|-----1--3--|--1-------||
C |-----2-----------------|-----------|----------||
G |-----------------------|-----------|----------||

Find other easy uke songs like this.

Share
Pin
Reddit
Email
750 Shares